ISO-10303-21;
HEADER;
FILE_DESCRIPTION (( 'STEP AP203' ),
    '1' );
FILE_NAME ('MQWP-25.4-830.STEP',
    '2020-12-22T09:31:13',
    ( '' ),
    ( '' ),
    'SwSTEP 2.0',
    'SolidWorks 2020',
    '' );
FILE_SCHEMA (( 'CONFIG_CONTROL_DESIGN' ));
ENDSEC;

DATA;
#1 = APPROVAL_PERSON_ORGANIZATION ( #12, #66, #11 ) ;
#2 = CARTESIAN_POINT ( 'NONE',  ( 2.449293598294706907E-16, 0.000000000000000000, 0.000000000000000000 ) ) ;
#3 = DIRECTION ( 'NONE',  ( 0.000000000000000000, 0.000000000000000000, 1.000000000000000000 ) ) ;
#4 = DIRECTION ( 'NONE',  ( -1.000000000000000000, -0.000000000000000000, -0.000000000000000000 ) ) ;
#5 = APPROVAL_ROLE ( '' ) ;
#6 = CARTESIAN_POINT ( 'NONE',  ( 2.449293598294706907E-16, 0.000000000000000000, 3.000000000000000000 ) ) ;
#7 = PERSON_AND_ORGANIZATION_ROLE ( 'classification_officer' ) ;
#8 = CARTESIAN_POINT ( 'NONE',  ( 2.449293598294706907E-16, 0.000000000000000000, 0.000000000000000000 ) ) ;
#9 = CC_DESIGN_PERSON_AND_ORGANIZATION_ASSIGNMENT ( #40, #74, ( #30 ) ) ;
#10 = PERSON_AND_ORGANIZATION ( #145, #28 ) ;
#11 = APPROVAL_ROLE ( '' ) ;
#12 = PERSON_AND_ORGANIZATION ( #145, #28 ) ;
#13 = VECTOR ( 'NONE', #4, 1000.000000000000000 ) ;
#14 = APPLICATION_CONTEXT ( 'configuration controlled 3d designs of mechanical parts and assemblies' ) ;
#15 = AXIS2_PLACEMENT_3D ( 'NONE', #124, #39, #122 ) ;
#16 = APPROVAL ( #20, 'UNSPECIFIED' ) ;
#17 = CYLINDRICAL_SURFACE ( 'NONE', #15, 3.000000000000000000 ) ;
#18 = SECURITY_CLASSIFICATION_LEVEL ( 'unclassified' ) ;
#19 = AXIS2_PLACEMENT_3D ( 'NONE', #78, #3, #153 ) ;
#20 = APPROVAL_STATUS ( 'not_yet_approved' ) ;
#21 = CARTESIAN_POINT ( 'NONE',  ( 1.224646799147353454E-16, 3.000000000000000000, 0.000000000000000000 ) ) ;
#22 = PERSON_AND_ORGANIZATION ( #145, #28 ) ;
#23 = FACE_OUTER_BOUND ( 'NONE', #37, .T. ) ;
#24 = EDGE_CURVE ( 'NONE', #109, #70, #84, .T. ) ;
#25 = DATE_AND_TIME ( #53, #69 ) ;
#26 = APPROVAL ( #157, 'UNSPECIFIED' ) ;
#27 = AXIS2_PLACEMENT_3D ( 'NONE', #29, #158, #104 ) ;
#28 = ORGANIZATION ( 'UNSPECIFIED', 'UNSPECIFIED', '' ) ;
#29 = CARTESIAN_POINT ( 'NONE',  ( 0.9999999999999997780, 3.000000000000000000, 0.000000000000000000 ) ) ;
#30 = PRODUCT ( 'MQWP-25.4-830', 'MQWP-25.4-830', '', ( #171 ) ) ;
#31 = CC_DESIGN_PERSON_AND_ORGANIZATION_ASSIGNMENT ( #105, #36, ( #156 ) ) ;
#32 = LINE ( 'NONE', #88, #13 ) ;
#33 = CARTESIAN_POINT ( 'NONE',  ( 0.000000000000000000, 0.000000000000000000, 0.000000000000000000 ) ) ;
#34 = VECTOR ( 'NONE', #35, 1000.000000000000000 ) ;
#35 = DIRECTION ( 'NONE',  ( -1.000000000000000000, -0.000000000000000000, -0.000000000000000000 ) ) ;
#36 = PERSON_AND_ORGANIZATION_ROLE ( 'creator' ) ;
#37 = EDGE_LOOP ( 'NONE', ( #118, #143 ) ) ;
#38 = COORDINATED_UNIVERSAL_TIME_OFFSET ( 8, 0, .AHEAD. ) ;
#39 = DIRECTION ( 'NONE',  ( -1.000000000000000000, -0.000000000000000000, -0.000000000000000000 ) ) ;
#40 = PERSON_AND_ORGANIZATION ( #145, #28 ) ;
#41 = DATE_TIME_ROLE ( 'classification_date' ) ;
#42 = UNCERTAINTY_MEASURE_WITH_UNIT (LENGTH_MEASURE( 1.000000000000000082E-05 ), #110, 'distance_accuracy_value', 'NONE');
#43 = ADVANCED_FACE ( 'NONE', ( #91 ), #62, .F. ) ;
#44 = CARTESIAN_POINT ( 'NONE',  ( 0.9999999999999995559, 3.673940397442059868E-16, -3.000000000000000000 ) ) ;
#45 = CARTESIAN_POINT ( 'NONE',  ( 0.9999999999999995559, 0.000000000000000000, 0.000000000000000000 ) ) ;
#46 = EDGE_LOOP ( 'NONE', ( #58, #121 ) ) ;
#47 = APPROVAL_ROLE ( '' ) ;
#48 = CARTESIAN_POINT ( 'NONE',  ( 0.000000000000000000, 0.000000000000000000, 3.000000000000000000 ) ) ;
#49 = PERSON_AND_ORGANIZATION_ROLE ( 'design_supplier' ) ;
#50 = DIRECTION ( 'NONE',  ( 1.000000000000000000, 0.000000000000000000, 0.000000000000000000 ) ) ;
#51 = ADVANCED_BREP_SHAPE_REPRESENTATION ( 'MQWP-25.4-830', ( #101, #19 ), #114 ) ;
#52 = DATE_TIME_ROLE ( 'creation_date' ) ;
#53 = CALENDAR_DATE ( 2020, 22, 12 ) ;
#54 = CIRCLE ( 'NONE', #159, 3.000000000000000000 ) ;
#55 = ADVANCED_FACE ( 'NONE', ( #92 ), #169, .T. ) ;
#56 = LOCAL_TIME ( 17, 31, 13.00000000000000000, #130 ) ;
#57 = ORIENTED_EDGE ( 'NONE', *, *, #24, .T. ) ;
#58 = ORIENTED_EDGE ( 'NONE', *, *, #113, .F. ) ;
#59 = ADVANCED_FACE ( 'NONE', ( #23 ), #165, .F. ) ;
#60 = CARTESIAN_POINT ( 'NONE',  ( 0.9999999999999995559, 0.000000000000000000, 0.000000000000000000 ) ) ;
#61 = DATE_AND_TIME ( #132, #56 ) ;
#62 = PLANE ( 'NONE',  #27 ) ;
#63 = DIRECTION ( 'NONE',  ( -1.000000000000000000, -0.000000000000000000, -0.000000000000000000 ) ) ;
#64 = DATE_AND_TIME ( #126, #97 ) ;
#65 = AXIS2_PLACEMENT_3D ( 'NONE', #33, #140, #155 ) ;
#66 = APPROVAL ( #67, 'UNSPECIFIED' ) ;
#67 = APPROVAL_STATUS ( 'not_yet_approved' ) ;
#68 = APPLICATION_CONTEXT ( 'configuration controlled 3d designs of mechanical parts and assemblies' ) ;
#69 = LOCAL_TIME ( 17, 31, 13.00000000000000000, #174 ) ;
#70 = VERTEX_POINT ( 'NONE', #73 ) ;
#71 = ORIENTED_EDGE ( 'NONE', *, *, #123, .T. ) ;
#72 = COORDINATED_UNIVERSAL_TIME_OFFSET ( 8, 0, .AHEAD. ) ;
#73 = CARTESIAN_POINT ( 'NONE',  ( 0.9999999999999995559, 0.000000000000000000, 3.000000000000000000 ) ) ;
#74 = PERSON_AND_ORGANIZATION_ROLE ( 'design_owner' ) ;
#75 = ORIENTED_EDGE ( 'NONE', *, *, #129, .F. ) ;
#76 = APPROVAL_DATE_TIME ( #135, #26 ) ;
#77 = EDGE_LOOP ( 'NONE', ( #85, #57, #71, #75 ) ) ;
#78 = CARTESIAN_POINT ( 'NONE',  ( 0.000000000000000000, 0.000000000000000000, 0.000000000000000000 ) ) ;
#79 = EDGE_CURVE ( 'NONE', #103, #141, #161, .T. ) ;
#80 = CC_DESIGN_SECURITY_CLASSIFICATION ( #146, ( #156 ) ) ;
#81 = CALENDAR_DATE ( 2020, 22, 12 ) ;
#82 = SHAPE_DEFINITION_REPRESENTATION ( #100, #51 ) ;
#83 = LOCAL_TIME ( 17, 31, 13.00000000000000000, #38 ) ;
#84 = CIRCLE ( 'NONE', #139, 3.000000000000000000 ) ;
#85 = ORIENTED_EDGE ( 'NONE', *, *, #99, .F. ) ;
#86 = DESIGN_CONTEXT ( 'detailed design', #14, 'design' ) ;
#87 = DIRECTION ( 'NONE',  ( 0.000000000000000000, 0.000000000000000000, -1.000000000000000000 ) ) ;
#88 = CARTESIAN_POINT ( 'NONE',  ( 0.000000000000000000, 3.673940397442059868E-16, -3.000000000000000000 ) ) ;
#89 = CIRCLE ( 'NONE', #115, 3.000000000000000000 ) ;
#90 = AXIS2_PLACEMENT_3D ( 'NONE', #2, #128, #95 ) ;
#91 = FACE_OUTER_BOUND ( 'NONE', #46, .T. ) ;
#92 = FACE_OUTER_BOUND ( 'NONE', #119, .T. ) ;
#93 = APPLICATION_PROTOCOL_DEFINITION ( 'international standard', 'config_control_design', 1994, #14 ) ;
#94 = CC_DESIGN_PERSON_AND_ORGANIZATION_ASSIGNMENT ( #96, #173, ( #154 ) ) ;
#95 = DIRECTION ( 'NONE',  ( 0.000000000000000000, 0.000000000000000000, 1.000000000000000000 ) ) ;
#96 = PERSON_AND_ORGANIZATION ( #145, #28 ) ;
#97 = LOCAL_TIME ( 17, 31, 13.00000000000000000, #72 ) ;
#98 = CC_DESIGN_DATE_AND_TIME_ASSIGNMENT ( #64, #41, ( #146 ) ) ;
#99 = EDGE_CURVE ( 'NONE', #109, #141, #32, .T. ) ;
#100 = PRODUCT_DEFINITION_SHAPE ( 'NONE', 'NONE',  #154 ) ;
#101 = MANIFOLD_SOLID_BREP ( 'Ðý×', #106 ) ;
#102 = DIRECTION ( 'NONE',  ( 0.000000000000000000, 0.000000000000000000, 1.000000000000000000 ) ) ;
#103 = VERTEX_POINT ( 'NONE', #6 ) ;
#104 = DIRECTION ( 'NONE',  ( -0.000000000000000000, 0.000000000000000000, 1.000000000000000000 ) ) ;
#105 = PERSON_AND_ORGANIZATION ( #145, #28 ) ;
#106 = CLOSED_SHELL ( 'NONE', ( #55, #149, #43, #59 ) ) ;
#107 = DIRECTION ( 'NONE',  ( -1.000000000000000000, -0.000000000000000000, -0.000000000000000000 ) ) ;
#108 = LOCAL_TIME ( 17, 31, 13.00000000000000000, #147 ) ;
#109 = VERTEX_POINT ( 'NONE', #44 ) ;
#110 =( LENGTH_UNIT ( ) NAMED_UNIT ( * ) SI_UNIT ( .MILLI., .METRE. ) );
#111 =( NAMED_UNIT ( * ) SI_UNIT ( $, .STERADIAN. ) SOLID_ANGLE_UNIT ( ) );
#112 = AXIS2_PLACEMENT_3D ( 'NONE', #21, #50, #87 ) ;
#113 = EDGE_CURVE ( 'NONE', #70, #109, #89, .T. ) ;
#114 =( GEOMETRIC_REPRESENTATION_CONTEXT ( 3 ) GLOBAL_UNCERTAINTY_ASSIGNED_CONTEXT ( ( #42 ) ) GLOBAL_UNIT_ASSIGNED_CONTEXT ( ( #110, #164, #111 ) ) REPRESENTATION_CONTEXT ( 'NONE', 'WORKASPACE' ) );
#115 = AXIS2_PLACEMENT_3D ( 'NONE', #60, #152, #133 ) ;
#116 = CC_DESIGN_PERSON_AND_ORGANIZATION_ASSIGNMENT ( #22, #7, ( #146 ) ) ;
#117 = ORIENTED_EDGE ( 'NONE', *, *, #123, .F. ) ;
#118 = ORIENTED_EDGE ( 'NONE', *, *, #79, .T. ) ;
#119 = EDGE_LOOP ( 'NONE', ( #131, #125, #137, #117 ) ) ;
#120 = CALENDAR_DATE ( 2020, 22, 12 ) ;
#121 = ORIENTED_EDGE ( 'NONE', *, *, #24, .F. ) ;
#122 = DIRECTION ( 'NONE',  ( 0.000000000000000000, 0.000000000000000000, 1.000000000000000000 ) ) ;
#123 = EDGE_CURVE ( 'NONE', #70, #103, #167, .T. ) ;
#124 = CARTESIAN_POINT ( 'NONE',  ( 0.000000000000000000, 0.000000000000000000, 0.000000000000000000 ) ) ;
#125 = ORIENTED_EDGE ( 'NONE', *, *, #99, .T. ) ;
#126 = CALENDAR_DATE ( 2020, 22, 12 ) ;
#127 = CC_DESIGN_DATE_AND_TIME_ASSIGNMENT ( #144, #52, ( #154 ) ) ;
#128 = DIRECTION ( 'NONE',  ( -1.000000000000000000, -0.000000000000000000, -0.000000000000000000 ) ) ;
#129 = EDGE_CURVE ( 'NONE', #141, #103, #54, .T. ) ;
#130 = COORDINATED_UNIVERSAL_TIME_OFFSET ( 8, 0, .AHEAD. ) ;
#131 = ORIENTED_EDGE ( 'NONE', *, *, #113, .T. ) ;
#132 = CALENDAR_DATE ( 2020, 22, 12 ) ;
#133 = DIRECTION ( 'NONE',  ( 0.000000000000000000, 0.000000000000000000, 1.000000000000000000 ) ) ;
#134 = CC_DESIGN_APPROVAL ( #26, ( #156 ) ) ;
#135 = DATE_AND_TIME ( #81, #108 ) ;
#136 = FACE_OUTER_BOUND ( 'NONE', #77, .T. ) ;
#137 = ORIENTED_EDGE ( 'NONE', *, *, #79, .F. ) ;
#138 = PERSON_AND_ORGANIZATION ( #145, #28 ) ;
#139 = AXIS2_PLACEMENT_3D ( 'NONE', #45, #107, #162 ) ;
#140 = DIRECTION ( 'NONE',  ( -1.000000000000000000, -0.000000000000000000, -0.000000000000000000 ) ) ;
#141 = VERTEX_POINT ( 'NONE', #151 ) ;
#142 = PERSON_AND_ORGANIZATION ( #145, #28 ) ;
#143 = ORIENTED_EDGE ( 'NONE', *, *, #129, .T. ) ;
#144 = DATE_AND_TIME ( #120, #83 ) ;
#145 = PERSON ( 'UNSPECIFIED', 'UNSPECIFIED', 'UNSPECIFIED', ('UNSPECIFIED'), ('UNSPECIFIED'), ('UNSPECIFIED') ) ;
#146 = SECURITY_CLASSIFICATION ( '', '', #18 ) ;
#147 = COORDINATED_UNIVERSAL_TIME_OFFSET ( 8, 0, .AHEAD. ) ;
#148 = CC_DESIGN_APPROVAL ( #66, ( #146 ) ) ;
#149 = ADVANCED_FACE ( 'NONE', ( #136 ), #17, .T. ) ;
#150 = CC_DESIGN_APPROVAL ( #16, ( #154 ) ) ;
#151 = CARTESIAN_POINT ( 'NONE',  ( 2.449293598294706907E-16, 3.673940397442059868E-16, -3.000000000000000000 ) ) ;
#152 = DIRECTION ( 'NONE',  ( -1.000000000000000000, -0.000000000000000000, -0.000000000000000000 ) ) ;
#153 = DIRECTION ( 'NONE',  ( 1.000000000000000000, 0.000000000000000000, 0.000000000000000000 ) ) ;
#154 = PRODUCT_DEFINITION ( 'UNKNOWN', '', #156, #86 ) ;
#155 = DIRECTION ( 'NONE',  ( 0.000000000000000000, 0.000000000000000000, 1.000000000000000000 ) ) ;
#156 = PRODUCT_DEFINITION_FORMATION_WITH_SPECIFIED_SOURCE ( 'ANY', '', #30, .NOT_KNOWN. ) ;
#157 = APPROVAL_STATUS ( 'not_yet_approved' ) ;
#158 = DIRECTION ( 'NONE',  ( -1.000000000000000000, 0.000000000000000000, -0.000000000000000000 ) ) ;
#159 = AXIS2_PLACEMENT_3D ( 'NONE', #8, #63, #102 ) ;
#160 = APPROVAL_DATE_TIME ( #25, #66 ) ;
#161 = CIRCLE ( 'NONE', #90, 3.000000000000000000 ) ;
#162 = DIRECTION ( 'NONE',  ( 0.000000000000000000, 0.000000000000000000, 1.000000000000000000 ) ) ;
#163 = APPROVAL_PERSON_ORGANIZATION ( #10, #16, #5 ) ;
#164 =( NAMED_UNIT ( * ) PLANE_ANGLE_UNIT ( ) SI_UNIT ( $, .RADIAN. ) );
#165 = PLANE ( 'NONE',  #112 ) ;
#166 = APPLICATION_PROTOCOL_DEFINITION ( 'international standard', 'config_control_design', 1994, #68 ) ;
#167 = LINE ( 'NONE', #48, #34 ) ;
#168 = APPROVAL_DATE_TIME ( #61, #16 ) ;
#169 = CYLINDRICAL_SURFACE ( 'NONE', #65, 3.000000000000000000 ) ;
#170 = APPROVAL_PERSON_ORGANIZATION ( #138, #26, #47 ) ;
#171 = MECHANICAL_CONTEXT ( 'NONE', #68, 'mechanical' ) ;
#172 = PRODUCT_RELATED_PRODUCT_CATEGORY ( 'detail', '', ( #30 ) ) ;
#173 = PERSON_AND_ORGANIZATION_ROLE ( 'creator' ) ;
#174 = COORDINATED_UNIVERSAL_TIME_OFFSET ( 8, 0, .AHEAD. ) ;
#175 = CC_DESIGN_PERSON_AND_ORGANIZATION_ASSIGNMENT ( #142, #49, ( #156 ) ) ;
ENDSEC;
END-ISO-10303-21;
